The Blood Arm

Can I Unwind吉他谱

歌手:The Blood Arm

歌手字母索引:T

地区:国外歌手

热度:1100

The Blood Arm共有 7 首吉他谱

收藏本吉他谱

E[---------------------------------------------------------------------------|
B[--2-2------------------2-2----------------2-2---------------2-2------------|
G[-------0-2-4---------------0-2-4--------------0-2-4-------------0-2-4------|
D[---------------------------------------------------------------------------|
A[-------------0-0-3-5--------------0-0-3-5-----------0-0-3-4-----------0-0--|
E[---------------------------------------------------------------------------|

E[--------------------------------------------]
B[----2---------------------------------------]
G[--------------------------------------------]
D[--------------------------------------------]
A[3-4----------------------3-3--0-------------]
E[------0-5--4-4--2-2--0-0------2-5--4-4--2-2-]

Sorry not the whole song ran out of time. I'll post the rest later.

提醒:该吉他谱已全部加载完成。